ISO-10303-21;
HEADER;
FILE_DESCRIPTION (( 'STEP AP203' ),
    '1' );
FILE_NAME ('am-4670 2x2x0.0625 Wall Tubing.STEP',
    '2025-02-26T18:28:45',
    ( '' ),
    ( '' ),
    'SwSTEP 2.0',
    'SolidWorks 2024',
    '' );
FILE_SCHEMA (( 'CONFIG_CONTROL_DESIGN' ));
ENDSEC;

DATA;
#1 = PLANE ( 'NONE',  #50 ) ;
#2 = EDGE_CURVE ( 'NONE', #109, #80, #316, .T. ) ;
#3 = DIRECTION ( 'NONE',  ( 0.000000000000000000, 1.000000000000000000, 0.000000000000000000 ) ) ;
#4 = DIRECTION ( 'NONE',  ( 0.000000000000000000, 1.365923996832131609E-16, -1.000000000000000000 ) ) ;
#5 = VECTOR ( 'NONE', #364, 39.37007874015748143 ) ;
#6 = LOCAL_TIME ( 13, 28, 45.00000000000000000, #313 ) ;
#7 = DIRECTION ( 'NONE',  ( -1.000000000000000000, -0.000000000000000000, -0.000000000000000000 ) ) ;
#8 = CC_DESIGN_PERSON_AND_ORGANIZATION_ASSIGNMENT ( #194, #140, ( #272 ) ) ;
#9 = LINE ( 'NONE', #174, #138 ) ;
#10 = CARTESIAN_POINT ( 'NONE',  ( 72.00000000000000000, -0.9999999999999995559, -1.000000000000000444 ) ) ;
#11 = CARTESIAN_POINT ( 'NONE',  ( 72.00000000000000000, -0.9374999999999997780, -0.9374999999999998890 ) ) ;
#12 = APPROVAL_PERSON_ORGANIZATION ( #112, #200, #59 ) ;
#13 = CARTESIAN_POINT ( 'NONE',  ( 72.00000000000000000, -0.9999999999999995559, -1.000000000000000444 ) ) ;
#14 = DIRECTION ( 'NONE',  ( -0.000000000000000000, 1.000000000000000000, 1.365923996832131609E-16 ) ) ;
#15 = CARTESIAN_POINT ( 'NONE',  ( 72.00000000000000000, -0.9999999999999995559, -1.000000000000000444 ) ) ;
#16 = ADVANCED_FACE ( 'NONE', ( #90 ), #255, .T. ) ;
#17 =( GEOMETRIC_REPRESENTATION_CONTEXT ( 3 ) GLOBAL_UNCERTAINTY_ASSIGNED_CONTEXT ( ( #197 ) ) GLOBAL_UNIT_ASSIGNED_CONTEXT ( ( #321, #345, #286 ) ) REPRESENTATION_CONTEXT ( 'NONE', 'WORKASPACE' ) );
#18 = APPROVAL_ROLE ( '' ) ;
#19 = VERTEX_POINT ( 'NONE', #162 ) ;
#20 = COORDINATED_UNIVERSAL_TIME_OFFSET ( 5, 0, .BEHIND. ) ;
#21 = LINE ( 'NONE', #318, #252 ) ;
#22 = APPLICATION_PROTOCOL_DEFINITION ( 'international standard', 'config_control_design', 1994, #265 ) ;
#23 = ORIENTED_EDGE ( 'NONE', *, *, #245, .T. ) ;
#24 = VECTOR ( 'NONE', #177, 39.37007874015748143 ) ;
#25 = DATE_AND_TIME ( #104, #213 ) ;
#26 = EDGE_LOOP ( 'NONE', ( #225, #23, #293, #253 ) ) ;
#27 = PERSON_AND_ORGANIZATION ( #157, #93 ) ;
#28 = ORIENTED_EDGE ( 'NONE', *, *, #2, .F. ) ;
#29 = CARTESIAN_POINT ( 'NONE',  ( 72.00000000000000000, -0.9374999999999997780, -0.9374999999999998890 ) ) ;
#30 = ADVANCED_FACE ( 'NONE', ( #195 ), #227, .T. ) ;
#31 = VECTOR ( 'NONE', #285, 39.37007874015748143 ) ;
#32 = LINE ( 'NONE', #29, #336 ) ;
#33 = LINE ( 'NONE', #296, #235 ) ;
#34 = EDGE_CURVE ( 'NONE', #279, #105, #163, .T. ) ;
#35 = PLANE ( 'NONE',  #371 ) ;
#36 = CC_DESIGN_PERSON_AND_ORGANIZATION_ASSIGNMENT ( #27, #143, ( #103 ) ) ;
#37 = AXIS2_PLACEMENT_3D ( 'NONE', #353, #170, #175 ) ;
#38 = CARTESIAN_POINT ( 'NONE',  ( 0.000000000000000000, 0.9999999999999993339, 0.9999999999999995559 ) ) ;
#39 = DIRECTION ( 'NONE',  ( -1.000000000000000000, -0.000000000000000000, -0.000000000000000000 ) ) ;
#40 = EDGE_LOOP ( 'NONE', ( #322, #344, #240, #60 ) ) ;
#41 = LINE ( 'NONE', #209, #312 ) ;
#42 = EDGE_CURVE ( 'NONE', #99, #243, #21, .T. ) ;
#43 = DIRECTION ( 'NONE',  ( -1.000000000000000000, -0.000000000000000000, -0.000000000000000000 ) ) ;
#44 = VECTOR ( 'NONE', #308, 39.37007874015748143 ) ;
#45 = LINE ( 'NONE', #78, #189 ) ;
#46 = ORIENTED_EDGE ( 'NONE', *, *, #61, .F. ) ;
#47 = FACE_BOUND ( 'NONE', #26, .T. ) ;
#48 = ORIENTED_EDGE ( 'NONE', *, *, #172, .F. ) ;
#49 = APPROVAL_STATUS ( 'not_yet_approved' ) ;
#50 = AXIS2_PLACEMENT_3D ( 'NONE', #117, #146, #66 ) ;
#51 = ORIENTED_EDGE ( 'NONE', *, *, #2, .T. ) ;
#52 = VECTOR ( 'NONE', #65, 39.37007874015748143 ) ;
#53 = EDGE_LOOP ( 'NONE', ( #366, #217, #348, #281 ) ) ;
#54 = DIRECTION ( 'NONE',  ( 0.000000000000000000, 0.000000000000000000, 1.000000000000000000 ) ) ;
#55 = ORIENTED_EDGE ( 'NONE', *, *, #373, .F. ) ;
#56 = APPROVAL_ROLE ( '' ) ;
#57 = VERTEX_POINT ( 'NONE', #206 ) ;
#58 = CC_DESIGN_APPROVAL ( #114, ( #272 ) ) ;
#59 = APPROVAL_ROLE ( '' ) ;
#60 = ORIENTED_EDGE ( 'NONE', *, *, #172, .T. ) ;
#61 = EDGE_CURVE ( 'NONE', #87, #315, #150, .T. ) ;
#62 = FACE_BOUND ( 'NONE', #363, .T. ) ;
#63 = LINE ( 'NONE', #295, #304 ) ;
#64 = LOCAL_TIME ( 13, 28, 45.00000000000000000, #221 ) ;
#65 = DIRECTION ( 'NONE',  ( -0.000000000000000000, -0.000000000000000000, -1.000000000000000000 ) ) ;
#66 = DIRECTION ( 'NONE',  ( 0.000000000000000000, -0.000000000000000000, -1.000000000000000000 ) ) ;
#67 = DIRECTION ( 'NONE',  ( 0.000000000000000000, 0.000000000000000000, -1.000000000000000000 ) ) ;
#68 = CARTESIAN_POINT ( 'NONE',  ( 72.00000000000000000, 0.9999999999999993339, 0.9999999999999995559 ) ) ;
#69 = CARTESIAN_POINT ( 'NONE',  ( 72.00000000000000000, 0.9999999999999995559, -1.000000000000000444 ) ) ;
#70 = EDGE_CURVE ( 'NONE', #315, #57, #32, .T. ) ;
#71 = VERTEX_POINT ( 'NONE', #351 ) ;
#72 = DIRECTION ( 'NONE',  ( 0.000000000000000000, 0.000000000000000000, 1.000000000000000000 ) ) ;
#73 = ORIENTED_EDGE ( 'NONE', *, *, #330, .F. ) ;
#74 = PLANE ( 'NONE',  #75 ) ;
#75 = AXIS2_PLACEMENT_3D ( 'NONE', #127, #124, #179 ) ;
#76 = ORIENTED_EDGE ( 'NONE', *, *, #234, .T. ) ;
#77 = EDGE_CURVE ( 'NONE', #87, #19, #356, .T. ) ;
#78 = CARTESIAN_POINT ( 'NONE',  ( 72.00000000000000000, -0.9999999999999995559, -1.000000000000000444 ) ) ;
#79 = PERSON_AND_ORGANIZATION_ROLE ( 'creator' ) ;
#80 = VERTEX_POINT ( 'NONE', #119 ) ;
#81 = DIRECTION ( 'NONE',  ( 1.000000000000000000, 0.000000000000000000, 0.000000000000000000 ) ) ;
#82 = VECTOR ( 'NONE', #238, 39.37007874015748143 ) ;
#83 = DIRECTION ( 'NONE',  ( 0.000000000000000000, -0.000000000000000000, 1.000000000000000000 ) ) ;
#84 = CALENDAR_DATE ( 2025, 26, 2 ) ;
#85 = ORIENTED_EDGE ( 'NONE', *, *, #301, .T. ) ;
#86 = APPROVAL_STATUS ( 'not_yet_approved' ) ;
#87 = VERTEX_POINT ( 'NONE', #171 ) ;
#88 = PERSON_AND_ORGANIZATION ( #157, #93 ) ;
#89 = VERTEX_POINT ( 'NONE', #92 ) ;
#90 = FACE_OUTER_BOUND ( 'NONE', #309, .T. ) ;
#91 = LINE ( 'NONE', #147, #203 ) ;
#92 = CARTESIAN_POINT ( 'NONE',  ( 0.000000000000000000, 0.9999999999999995559, -1.000000000000000444 ) ) ;
#93 = ORGANIZATION ( 'UNSPECIFIED', 'UNSPECIFIED', '' ) ;
#94 = CARTESIAN_POINT ( 'NONE',  ( 72.00000000000000000, 0.9999999999999995559, -1.000000000000000444 ) ) ;
#95 = FACE_OUTER_BOUND ( 'NONE', #113, .T. ) ;
#96 = ADVANCED_FACE ( 'NONE', ( #199 ), #1, .T. ) ;
#97 = ORIENTED_EDGE ( 'NONE', *, *, #61, .T. ) ;
#98 = LINE ( 'NONE', #159, #120 ) ;
#99 = VERTEX_POINT ( 'NONE', #118 ) ;
#100 =( LENGTH_UNIT ( ) NAMED_UNIT ( * ) SI_UNIT ( $, .METRE. ) );
#101 = CC_DESIGN_PERSON_AND_ORGANIZATION_ASSIGNMENT ( #88, #218, ( #241 ) ) ;
#102 = DIRECTION ( 'NONE',  ( -0.000000000000000000, -1.000000000000000000, -0.000000000000000000 ) ) ;
#103 = SECURITY_CLASSIFICATION ( '', '', #291 ) ;
#104 = CALENDAR_DATE ( 2025, 26, 2 ) ;
#105 = VERTEX_POINT ( 'NONE', #38 ) ;
#106 = CARTESIAN_POINT ( 'NONE',  ( 72.00000000000000000, -0.9374999999999997780, -0.9374999999999998890 ) ) ;
#107 = EDGE_CURVE ( 'NONE', #57, #243, #237, .T. ) ;
#108 = AXIS2_PLACEMENT_3D ( 'NONE', #106, #219, #83 ) ;
#109 = VERTEX_POINT ( 'NONE', #355 ) ;
#110 = DATE_TIME_ROLE ( 'creation_date' ) ;
#111 = CARTESIAN_POINT ( 'NONE',  ( 72.00000000000000000, -0.9999999999999998890, 0.9999999999999996669 ) ) ;
#112 = PERSON_AND_ORGANIZATION ( #157, #93 ) ;
#113 = EDGE_LOOP ( 'NONE', ( #184, #193, #251, #85 ) ) ;
#114 = APPROVAL ( #86, 'UNSPECIFIED' ) ;
#115 = EDGE_LOOP ( 'NONE', ( #271, #136, #76, #346 ) ) ;
#116 = VECTOR ( 'NONE', #142, 39.37007874015748143 ) ;
#117 = CARTESIAN_POINT ( 'NONE',  ( 72.00000000000000000, 0.9375000000000005551, -0.9374999999999998890 ) ) ;
#118 = CARTESIAN_POINT ( 'NONE',  ( 72.00000000000000000, 0.9375000000000005551, -0.9374999999999998890 ) ) ;
#119 = CARTESIAN_POINT ( 'NONE',  ( 0.000000000000000000, -0.9999999999999998890, 0.9999999999999996669 ) ) ;
#120 = VECTOR ( 'NONE', #39, 39.37007874015748143 ) ;
#121 = DIRECTION ( 'NONE',  ( -0.000000000000000000, -1.000000000000000000, 6.829619984160661744E-17 ) ) ;
#122 = LINE ( 'NONE', #297, #82 ) ;
#123 = EDGE_CURVE ( 'NONE', #80, #335, #91, .T. ) ;
#124 = DIRECTION ( 'NONE',  ( 1.000000000000000000, 0.000000000000000000, -0.000000000000000000 ) ) ;
#125 = VECTOR ( 'NONE', #43, 39.37007874015748143 ) ;
#126 = CC_DESIGN_APPROVAL ( #190, ( #103 ) ) ;
#127 = CARTESIAN_POINT ( 'NONE',  ( 0.000000000000000000, 0.000000000000000000, 0.000000000000000000 ) ) ;
#128 = VERTEX_POINT ( 'NONE', #329 ) ;
#129 = CARTESIAN_POINT ( 'NONE',  ( 0.000000000000000000, -0.9999999999999995559, -1.000000000000000444 ) ) ;
#130 = AXIS2_PLACEMENT_3D ( 'NONE', #337, #332, #278 ) ;
#131 = ORIENTED_EDGE ( 'NONE', *, *, #123, .T. ) ;
#132 = CALENDAR_DATE ( 2025, 26, 2 ) ;
#133 = ORIENTED_EDGE ( 'NONE', *, *, #42, .T. ) ;
#134 = APPLICATION_CONTEXT ( 'configuration controlled 3d designs of mechanical parts and assemblies' ) ;
#135 = CC_DESIGN_PERSON_AND_ORGANIZATION_ASSIGNMENT ( #137, #79, ( #347 ) ) ;
#136 = ORIENTED_EDGE ( 'NONE', *, *, #42, .F. ) ;
#137 = PERSON_AND_ORGANIZATION ( #157, #93 ) ;
#138 = VECTOR ( 'NONE', #145, 39.37007874015748143 ) ;
#139 = EDGE_LOOP ( 'NONE', ( #374, #376, #283, #256 ) ) ;
#140 = PERSON_AND_ORGANIZATION_ROLE ( 'design_supplier' ) ;
#141 = CC_DESIGN_PERSON_AND_ORGANIZATION_ASSIGNMENT ( #340, #168, ( #272 ) ) ;
#142 = DIRECTION ( 'NONE',  ( -1.000000000000000000, -0.000000000000000000, -0.000000000000000000 ) ) ;
#143 = PERSON_AND_ORGANIZATION_ROLE ( 'classification_officer' ) ;
#144 = ORIENTED_EDGE ( 'NONE', *, *, #161, .F. ) ;
#145 = DIRECTION ( 'NONE',  ( -1.000000000000000000, -0.000000000000000000, -0.000000000000000000 ) ) ;
#146 = DIRECTION ( 'NONE',  ( 0.000000000000000000, -1.000000000000000000, 0.000000000000000000 ) ) ;
#147 = CARTESIAN_POINT ( 'NONE',  ( 0.000000000000000000, -0.9999999999999995559, -1.000000000000000444 ) ) ;
#148 = CARTESIAN_POINT ( 'NONE',  ( 72.00000000000000000, -0.9374999999999997780, 0.9375000000000004441 ) ) ;
#149 = MANIFOLD_SOLID_BREP ( 'Boss-Extrude1', #228 ) ;
#150 = LINE ( 'NONE', #294, #52 ) ;
#151 = ADVANCED_FACE ( 'NONE', ( #326 ), #232, .F. ) ;
#152 = CARTESIAN_POINT ( 'NONE',  ( 0.000000000000000000, -0.9374999999999997780, 0.9375000000000004441 ) ) ;
#153 = PRODUCT_DEFINITION_SHAPE ( 'NONE', 'NONE',  #347 ) ;
#154 = CARTESIAN_POINT ( 'NONE',  ( 0.000000000000000000, 0.9375000000000005551, -0.9374999999999998890 ) ) ;
#155 = CARTESIAN_POINT ( 'NONE',  ( 72.00000000000000000, -0.9374999999999997780, 0.9375000000000004441 ) ) ;
#156 = ORIENTED_EDGE ( 'NONE', *, *, #245, .F. ) ;
#157 = PERSON ( 'UNSPECIFIED', 'UNSPECIFIED', 'UNSPECIFIED', ('UNSPECIFIED'), ('UNSPECIFIED'), ('UNSPECIFIED') ) ;
#158 = CARTESIAN_POINT ( 'NONE',  ( 72.00000000000000000, -0.9999999999999995559, -1.000000000000000444 ) ) ;
#159 = CARTESIAN_POINT ( 'NONE',  ( 72.00000000000000000, 0.9999999999999995559, -1.000000000000000444 ) ) ;
#160 = DATE_TIME_ROLE ( 'classification_date' ) ;
#161 = EDGE_CURVE ( 'NONE', #315, #99, #266, .T. ) ;
#162 = CARTESIAN_POINT ( 'NONE',  ( 0.000000000000000000, -0.9374999999999997780, 0.9375000000000004441 ) ) ;
#163 = LINE ( 'NONE', #192, #31 ) ;
#164 = CARTESIAN_POINT ( 'NONE',  ( 72.00000000000000000, -0.9374999999999997780, -0.9374999999999998890 ) ) ;
#165 = ADVANCED_FACE ( 'NONE', ( #95, #62 ), #298, .T. ) ;
#166 = VECTOR ( 'NONE', #303, 39.37007874015748143 ) ;
#167 = ORIENTED_EDGE ( 'NONE', *, *, #314, .T. ) ;
#168 = PERSON_AND_ORGANIZATION_ROLE ( 'creator' ) ;
#169 = EDGE_LOOP ( 'NONE', ( #223, #73, #167, #210 ) ) ;
#170 = DIRECTION ( 'NONE',  ( 1.000000000000000000, 0.000000000000000000, -0.000000000000000000 ) ) ;
#171 = CARTESIAN_POINT ( 'NONE',  ( 72.00000000000000000, -0.9374999999999997780, 0.9375000000000004441 ) ) ;
#172 = EDGE_CURVE ( 'NONE', #375, #335, #9, .T. ) ;
#173 = AXIS2_PLACEMENT_3D ( 'NONE', #343, #54, #81 ) ;
#174 = CARTESIAN_POINT ( 'NONE',  ( 72.00000000000000000, -0.9999999999999995559, -1.000000000000000444 ) ) ;
#175 = DIRECTION ( 'NONE',  ( -0.000000000000000000, 0.000000000000000000, -1.000000000000000000 ) ) ;
#176 = EDGE_CURVE ( 'NONE', #105, #80, #122, .T. ) ;
#177 = DIRECTION ( 'NONE',  ( -1.000000000000000000, -0.000000000000000000, -0.000000000000000000 ) ) ;
#178 = VECTOR ( 'NONE', #3, 39.37007874015748143 ) ;
#179 = DIRECTION ( 'NONE',  ( -0.000000000000000000, 0.000000000000000000, -1.000000000000000000 ) ) ;
#180 = FACE_OUTER_BOUND ( 'NONE', #229, .T. ) ;
#181 = DIRECTION ( 'NONE',  ( 1.000000000000000000, 0.000000000000000000, -0.000000000000000000 ) ) ;
#182 = AXIS2_PLACEMENT_3D ( 'NONE', #164, #341, #311 ) ;
#183 = LINE ( 'NONE', #247, #125 ) ;
#184 = ORIENTED_EDGE ( 'NONE', *, *, #230, .T. ) ;
#185 = DIRECTION ( 'NONE',  ( 0.000000000000000000, 1.000000000000000000, 0.000000000000000000 ) ) ;
#186 = EDGE_CURVE ( 'NONE', #89, #105, #33, .T. ) ;
#187 = DATE_AND_TIME ( #216, #222 ) ;
#188 = ORIENTED_EDGE ( 'NONE', *, *, #176, .T. ) ;
#189 = VECTOR ( 'NONE', #185, 39.37007874015748143 ) ;
#190 = APPROVAL ( #49, 'UNSPECIFIED' ) ;
#191 = APPROVAL_DATE_TIME ( #289, #200 ) ;
#192 = CARTESIAN_POINT ( 'NONE',  ( 72.00000000000000000, 0.9999999999999993339, 0.9999999999999995559 ) ) ;
#193 = ORIENTED_EDGE ( 'NONE', *, *, #373, .T. ) ;
#194 = PERSON_AND_ORGANIZATION ( #157, #93 ) ;
#195 = FACE_OUTER_BOUND ( 'NONE', #360, .T. ) ;
#196 = MECHANICAL_CONTEXT ( 'NONE', #134, 'mechanical' ) ;
#197 = UNCERTAINTY_MEASURE_WITH_UNIT (LENGTH_MEASURE( 1.000000000000000082E-05 ), #321, 'distance_accuracy_value', 'NONE');
#198 = ORIENTED_EDGE ( 'NONE', *, *, #77, .F. ) ;
#199 = FACE_OUTER_BOUND ( 'NONE', #115, .T. ) ;
#200 = APPROVAL ( #254, 'UNSPECIFIED' ) ;
#201 = DIRECTION ( 'NONE',  ( 0.000000000000000000, -1.000000000000000000, -1.365923996832131609E-16 ) ) ;
#202 = CARTESIAN_POINT ( 'NONE',  ( 0.000000000000000000, -0.9374999999999997780, -0.9374999999999998890 ) ) ;
#203 = VECTOR ( 'NONE', #261, 39.37007874015748143 ) ;
#204 = CARTESIAN_POINT ( 'NONE',  ( 72.00000000000000000, -0.9374999999999997780, -0.9374999999999998890 ) ) ;
#205 = ADVANCED_FACE ( 'NONE', ( #262 ), #35, .T. ) ;
#206 = CARTESIAN_POINT ( 'NONE',  ( 0.000000000000000000, -0.9374999999999997780, -0.9374999999999998890 ) ) ;
#207 = LINE ( 'NONE', #69, #44 ) ;
#208 = AXIS2_PLACEMENT_3D ( 'NONE', #94, #201, #4 ) ;
#209 = CARTESIAN_POINT ( 'NONE',  ( 0.000000000000000000, -0.9374999999999997780, -0.9374999999999998890 ) ) ;
#210 = ORIENTED_EDGE ( 'NONE', *, *, #77, .T. ) ;
#211 = FACE_OUTER_BOUND ( 'NONE', #40, .T. ) ;
#212 = LINE ( 'NONE', #306, #288 ) ;
#213 = LOCAL_TIME ( 13, 28, 45.00000000000000000, #20 ) ;
#214 = CARTESIAN_POINT ( 'NONE',  ( 72.00000000000000000, 0.9999999999999995559, -1.000000000000000444 ) ) ;
#215 = EDGE_CURVE ( 'NONE', #335, #89, #263, .T. ) ;
#216 = CALENDAR_DATE ( 2025, 26, 2 ) ;
#217 = ORIENTED_EDGE ( 'NONE', *, *, #186, .F. ) ;
#218 = PERSON_AND_ORGANIZATION_ROLE ( 'design_owner' ) ;
#219 = DIRECTION ( 'NONE',  ( 0.000000000000000000, 1.000000000000000000, 0.000000000000000000 ) ) ;
#220 = LOCAL_TIME ( 13, 28, 45.00000000000000000, #369 ) ;
#221 = COORDINATED_UNIVERSAL_TIME_OFFSET ( 5, 0, .BEHIND. ) ;
#222 = LOCAL_TIME ( 13, 28, 45.00000000000000000, #365 ) ;
#223 = ORIENTED_EDGE ( 'NONE', *, *, #367, .F. ) ;
#224 = APPROVAL_DATE_TIME ( #25, #114 ) ;
#225 = ORIENTED_EDGE ( 'NONE', *, *, #367, .T. ) ;
#226 = ADVANCED_BREP_SHAPE_REPRESENTATION ( 'am-4670 2x2x0.0625 Wall Tubing', ( #149, #173 ), #17 ) ;
#227 = PLANE ( 'NONE',  #108 ) ;
#228 = CLOSED_SHELL ( 'NONE', ( #165, #319, #305, #339, #357, #151, #205, #30, #16, #96 ) ) ;
#229 = EDGE_LOOP ( 'NONE', ( #188, #28, #307, #249 ) ) ;
#230 = EDGE_CURVE ( 'NONE', #279, #109, #63, .T. ) ;
#231 = DIRECTION ( 'NONE',  ( -1.000000000000000000, 0.000000000000000000, -0.000000000000000000 ) ) ;
#232 = PLANE ( 'NONE',  #208 ) ;
#233 = DIRECTION ( 'NONE',  ( -1.000000000000000000, -0.000000000000000000, -0.000000000000000000 ) ) ;
#234 = EDGE_CURVE ( 'NONE', #99, #71, #212, .T. ) ;
#235 = VECTOR ( 'NONE', #259, 39.37007874015748143 ) ;
#236 = SHAPE_DEFINITION_REPRESENTATION ( #153, #226 ) ;
#237 = LINE ( 'NONE', #202, #320 ) ;
#238 = DIRECTION ( 'NONE',  ( -0.000000000000000000, -1.000000000000000000, 6.829619984160661744E-17 ) ) ;
#239 = LINE ( 'NONE', #155, #246 ) ;
#240 = ORIENTED_EDGE ( 'NONE', *, *, #269, .F. ) ;
#241 = PRODUCT ( 'am-4670 2x2x0.0625 Wall Tubing', 'am-4670 2x2x0.0625 Wall Tubing', '', ( #196 ) ) ;
#242 = PRODUCT_RELATED_PRODUCT_CATEGORY ( 'detail', '', ( #241 ) ) ;
#243 = VERTEX_POINT ( 'NONE', #362 ) ;
#244 = LINE ( 'NONE', #152, #166 ) ;
#245 = EDGE_CURVE ( 'NONE', #19, #57, #41, .T. ) ;
#246 = VECTOR ( 'NONE', #102, 39.37007874015748143 ) ;
#247 = CARTESIAN_POINT ( 'NONE',  ( 72.00000000000000000, 0.9375000000000005551, 0.9375000000000004441 ) ) ;
#248 = DATE_AND_TIME ( #132, #6 ) ;
#249 = ORIENTED_EDGE ( 'NONE', *, *, #34, .T. ) ;
#250 = APPLICATION_PROTOCOL_DEFINITION ( 'international standard', 'config_control_design', 1994, #134 ) ;
#251 = ORIENTED_EDGE ( 'NONE', *, *, #269, .T. ) ;
#252 = VECTOR ( 'NONE', #7, 39.37007874015748143 ) ;
#253 = ORIENTED_EDGE ( 'NONE', *, *, #292, .T. ) ;
#254 = APPROVAL_STATUS ( 'not_yet_approved' ) ;
#255 = PLANE ( 'NONE',  #182 ) ;
#256 = ORIENTED_EDGE ( 'NONE', *, *, #352, .T. ) ;
#257 = AXIS2_PLACEMENT_3D ( 'NONE', #15, #72, #181 ) ;
#258 = DESIGN_CONTEXT ( 'detailed design', #265, 'design' ) ;
#259 = DIRECTION ( 'NONE',  ( 0.000000000000000000, -1.365923996832131609E-16, 1.000000000000000000 ) ) ;
#260 = DIMENSIONAL_EXPONENTS ( 1.000000000000000000, 0.000000000000000000, 0.000000000000000000, 0.000000000000000000, 0.000000000000000000, 0.000000000000000000, 0.000000000000000000 ) ;
#261 = DIRECTION ( 'NONE',  ( -0.000000000000000000, 1.365923996832131609E-16, -1.000000000000000000 ) ) ;
#262 = FACE_OUTER_BOUND ( 'NONE', #169, .T. ) ;
#263 = LINE ( 'NONE', #358, #264 ) ;
#264 = VECTOR ( 'NONE', #324, 39.37007874015748143 ) ;
#265 = APPLICATION_CONTEXT ( 'configuration controlled 3d designs of mechanical parts and assemblies' ) ;
#266 = LINE ( 'NONE', #204, #178 ) ;
#267 = LINE ( 'NONE', #13, #5 ) ;
#268 = ORIENTED_EDGE ( 'NONE', *, *, #107, .F. ) ;
#269 = EDGE_CURVE ( 'NONE', #375, #350, #45, .T. ) ;
#270 = PLANE ( 'NONE',  #130 ) ;
#271 = ORIENTED_EDGE ( 'NONE', *, *, #292, .F. ) ;
#272 = PRODUCT_DEFINITION_FORMATION_WITH_SPECIFIED_SOURCE ( 'ANY', '', #241, .NOT_KNOWN. ) ;
#273 = CC_DESIGN_DATE_AND_TIME_ASSIGNMENT ( #187, #160, ( #103 ) ) ;
#274 = CC_DESIGN_SECURITY_CLASSIFICATION ( #103, ( #272 ) ) ;
#275 = LINE ( 'NONE', #154, #299 ) ;
#276 = ORIENTED_EDGE ( 'NONE', *, *, #70, .F. ) ;
#277 = CC_DESIGN_DATE_AND_TIME_ASSIGNMENT ( #282, #110, ( #347 ) ) ;
#278 = DIRECTION ( 'NONE',  ( 0.000000000000000000, 1.000000000000000000, -6.829619984160661744E-17 ) ) ;
#279 = VERTEX_POINT ( 'NONE', #68 ) ;
#280 = PLANE ( 'NONE',  #257 ) ;
#281 = ORIENTED_EDGE ( 'NONE', *, *, #123, .F. ) ;
#282 = DATE_AND_TIME ( #372, #64 ) ;
#283 = ORIENTED_EDGE ( 'NONE', *, *, #301, .F. ) ;
#284 = PERSON_AND_ORGANIZATION ( #157, #93 ) ;
#285 = DIRECTION ( 'NONE',  ( -1.000000000000000000, -0.000000000000000000, -0.000000000000000000 ) ) ;
#286 =( NAMED_UNIT ( * ) SI_UNIT ( $, .STERADIAN. ) SOLID_ANGLE_UNIT ( ) );
#287 = ORIENTED_EDGE ( 'NONE', *, *, #314, .F. ) ;
#288 = VECTOR ( 'NONE', #302, 39.37007874015748143 ) ;
#289 = DATE_AND_TIME ( #84, #220 ) ;
#290 = ORIENTED_EDGE ( 'NONE', *, *, #234, .F. ) ;
#291 = SECURITY_CLASSIFICATION_LEVEL ( 'unclassified' ) ;
#292 = EDGE_CURVE ( 'NONE', #243, #128, #275, .T. ) ;
#293 = ORIENTED_EDGE ( 'NONE', *, *, #107, .T. ) ;
#294 = CARTESIAN_POINT ( 'NONE',  ( 72.00000000000000000, -0.9374999999999997780, -0.9374999999999998890 ) ) ;
#295 = CARTESIAN_POINT ( 'NONE',  ( 72.00000000000000000, -0.9999999999999998890, 0.9999999999999996669 ) ) ;
#296 = CARTESIAN_POINT ( 'NONE',  ( 0.000000000000000000, 0.9999999999999995559, -1.000000000000000444 ) ) ;
#297 = CARTESIAN_POINT ( 'NONE',  ( 0.000000000000000000, -0.9999999999999998890, 0.9999999999999996669 ) ) ;
#298 = PLANE ( 'NONE',  #37 ) ;
#299 = VECTOR ( 'NONE', #334, 39.37007874015748143 ) ;
#300 = PLANE ( 'NONE',  #325 ) ;
#301 = EDGE_CURVE ( 'NONE', #350, #279, #207, .T. ) ;
#302 = DIRECTION ( 'NONE',  ( 0.000000000000000000, 0.000000000000000000, 1.000000000000000000 ) ) ;
#303 = DIRECTION ( 'NONE',  ( -0.000000000000000000, -1.000000000000000000, -0.000000000000000000 ) ) ;
#304 = VECTOR ( 'NONE', #121, 39.37007874015748143 ) ;
#305 = ADVANCED_FACE ( 'NONE', ( #180 ), #270, .F. ) ;
#306 = CARTESIAN_POINT ( 'NONE',  ( 72.00000000000000000, 0.9375000000000005551, -0.9374999999999998890 ) ) ;
#307 = ORIENTED_EDGE ( 'NONE', *, *, #230, .F. ) ;
#308 = DIRECTION ( 'NONE',  ( 0.000000000000000000, -1.365923996832131609E-16, 1.000000000000000000 ) ) ;
#309 = EDGE_LOOP ( 'NONE', ( #268, #276, #368, #133 ) ) ;
#310 = PERSON_AND_ORGANIZATION ( #157, #93 ) ;
#311 = DIRECTION ( 'NONE',  ( 1.000000000000000000, 0.000000000000000000, -0.000000000000000000 ) ) ;
#312 = VECTOR ( 'NONE', #359, 39.37007874015748143 ) ;
#313 = COORDINATED_UNIVERSAL_TIME_OFFSET ( 5, 0, .BEHIND. ) ;
#314 = EDGE_CURVE ( 'NONE', #71, #87, #239, .T. ) ;
#315 = VERTEX_POINT ( 'NONE', #11 ) ;
#316 = LINE ( 'NONE', #111, #116 ) ;
#317 = LENGTH_MEASURE_WITH_UNIT ( LENGTH_MEASURE( 0.02539999999999999897 ), #100 );
#318 = CARTESIAN_POINT ( 'NONE',  ( 72.00000000000000000, 0.9375000000000005551, -0.9374999999999998890 ) ) ;
#319 = ADVANCED_FACE ( 'NONE', ( #331, #47 ), #74, .F. ) ;
#320 = VECTOR ( 'NONE', #323, 39.37007874015748143 ) ;
#321 =( CONVERSION_BASED_UNIT ( 'INCH', #317 ) LENGTH_UNIT ( ) NAMED_UNIT ( #260 ) );
#322 = ORIENTED_EDGE ( 'NONE', *, *, #215, .T. ) ;
#323 = DIRECTION ( 'NONE',  ( 0.000000000000000000, 1.000000000000000000, 0.000000000000000000 ) ) ;
#324 = DIRECTION ( 'NONE',  ( 0.000000000000000000, 1.000000000000000000, 0.000000000000000000 ) ) ;
#325 = AXIS2_PLACEMENT_3D ( 'NONE', #158, #14, #361 ) ;
#326 = FACE_OUTER_BOUND ( 'NONE', #139, .T. ) ;
#327 = APPROVAL_DATE_TIME ( #248, #190 ) ;
#328 = CARTESIAN_POINT ( 'NONE',  ( 72.00000000000000000, -0.9374999999999997780, 0.9375000000000004441 ) ) ;
#329 = CARTESIAN_POINT ( 'NONE',  ( 0.000000000000000000, 0.9375000000000005551, 0.9375000000000004441 ) ) ;
#330 = EDGE_CURVE ( 'NONE', #71, #128, #183, .T. ) ;
#331 = FACE_OUTER_BOUND ( 'NONE', #53, .T. ) ;
#332 = DIRECTION ( 'NONE',  ( 0.000000000000000000, -6.829619984160661744E-17, -1.000000000000000000 ) ) ;
#333 = FACE_OUTER_BOUND ( 'NONE', #338, .T. ) ;
#334 = DIRECTION ( 'NONE',  ( 0.000000000000000000, 0.000000000000000000, 1.000000000000000000 ) ) ;
#335 = VERTEX_POINT ( 'NONE', #129 ) ;
#336 = VECTOR ( 'NONE', #233, 39.37007874015748143 ) ;
#337 = CARTESIAN_POINT ( 'NONE',  ( 72.00000000000000000, -0.9999999999999998890, 0.9999999999999996669 ) ) ;
#338 = EDGE_LOOP ( 'NONE', ( #131, #48, #55, #51 ) ) ;
#339 = ADVANCED_FACE ( 'NONE', ( #333 ), #300, .F. ) ;
#340 = PERSON_AND_ORGANIZATION ( #157, #93 ) ;
#341 = DIRECTION ( 'NONE',  ( 0.000000000000000000, 0.000000000000000000, 1.000000000000000000 ) ) ;
#342 = APPROVAL_PERSON_ORGANIZATION ( #310, #190, #18 ) ;
#343 = CARTESIAN_POINT ( 'NONE',  ( 0.000000000000000000, 0.000000000000000000, 0.000000000000000000 ) ) ;
#344 = ORIENTED_EDGE ( 'NONE', *, *, #352, .F. ) ;
#345 =( NAMED_UNIT ( * ) PLANE_ANGLE_UNIT ( ) SI_UNIT ( $, .RADIAN. ) );
#346 = ORIENTED_EDGE ( 'NONE', *, *, #330, .T. ) ;
#347 = PRODUCT_DEFINITION ( 'UNKNOWN', '', #272, #258 ) ;
#348 = ORIENTED_EDGE ( 'NONE', *, *, #215, .F. ) ;
#349 = APPROVAL_PERSON_ORGANIZATION ( #284, #114, #56 ) ;
#350 = VERTEX_POINT ( 'NONE', #214 ) ;
#351 = CARTESIAN_POINT ( 'NONE',  ( 72.00000000000000000, 0.9375000000000005551, 0.9375000000000004441 ) ) ;
#352 = EDGE_CURVE ( 'NONE', #350, #89, #98, .T. ) ;
#353 = CARTESIAN_POINT ( 'NONE',  ( 72.00000000000000000, 0.000000000000000000, 0.000000000000000000 ) ) ;
#354 = CC_DESIGN_APPROVAL ( #200, ( #347 ) ) ;
#355 = CARTESIAN_POINT ( 'NONE',  ( 72.00000000000000000, -0.9999999999999998890, 0.9999999999999996669 ) ) ;
#356 = LINE ( 'NONE', #328, #24 ) ;
#357 = ADVANCED_FACE ( 'NONE', ( #211 ), #280, .F. ) ;
#358 = CARTESIAN_POINT ( 'NONE',  ( 0.000000000000000000, -0.9999999999999995559, -1.000000000000000444 ) ) ;
#359 = DIRECTION ( 'NONE',  ( -0.000000000000000000, -0.000000000000000000, -1.000000000000000000 ) ) ;
#360 = EDGE_LOOP ( 'NONE', ( #156, #198, #97, #370 ) ) ;
#361 = DIRECTION ( 'NONE',  ( 0.000000000000000000, -1.365923996832131609E-16, 1.000000000000000000 ) ) ;
#362 = CARTESIAN_POINT ( 'NONE',  ( 0.000000000000000000, 0.9375000000000005551, -0.9374999999999998890 ) ) ;
#363 = EDGE_LOOP ( 'NONE', ( #46, #287, #290, #144 ) ) ;
#364 = DIRECTION ( 'NONE',  ( -0.000000000000000000, 1.365923996832131609E-16, -1.000000000000000000 ) ) ;
#365 = COORDINATED_UNIVERSAL_TIME_OFFSET ( 5, 0, .BEHIND. ) ;
#366 = ORIENTED_EDGE ( 'NONE', *, *, #176, .F. ) ;
#367 = EDGE_CURVE ( 'NONE', #128, #19, #244, .T. ) ;
#368 = ORIENTED_EDGE ( 'NONE', *, *, #161, .T. ) ;
#369 = COORDINATED_UNIVERSAL_TIME_OFFSET ( 5, 0, .BEHIND. ) ;
#370 = ORIENTED_EDGE ( 'NONE', *, *, #70, .T. ) ;
#371 = AXIS2_PLACEMENT_3D ( 'NONE', #148, #67, #231 ) ;
#372 = CALENDAR_DATE ( 2025, 26, 2 ) ;
#373 = EDGE_CURVE ( 'NONE', #109, #375, #267, .T. ) ;
#374 = ORIENTED_EDGE ( 'NONE', *, *, #186, .T. ) ;
#375 = VERTEX_POINT ( 'NONE', #10 ) ;
#376 = ORIENTED_EDGE ( 'NONE', *, *, #34, .F. ) ;
ENDSEC;
END-ISO-10303-21;
